(0) Page:1

0--0------axelname.ru
0--0--0.com
0--0--0.net
0--0--0.ru
0--0--0.xyz
0--0--7.com
0--0-0.ru
0--0.business
0--0.info
0--0.legal
0--0.link
0--0.mobi
0--0.ru
0--0.science
0--0.su
0--00--0.com
0--00--0.net
0--000.com
0--1.ru
0--1.xyz
0--123456789.com
0--3.com
0--4.com
0--5.com
0--6.com
0--7.com
0--a.com
0--c.com
0--e.info
0--reversephonelookup.com
0--t.com
0--v--0.com
0-0-----------------------------------------------------------0.com
0-0--0.com
0-0--0.ru
0-0-0-0-0-0-0-0-0-0-0-0-0-0-0-0-0-0-0-0-0-0-0-0-0-0-0-0-0-0-0-0.com
0-0-0-0-0-0-0-0-0-0-0-0-0-10-0-0-0-0-0-0-0-0-0-0-0-0-0.info
0-0-0-0-0-0-0-0-0-0-0-0-0-15-0-0-0-0-0-0-0-0-0-0-0-0-0.info
0-0-0-0-0-0-0-0-0-0-0-0-0-18-0-0-0-0-0-0-0-0-0-0-0-0-0.info
0-0-0-0-0-0-0-0-0-0-0-0-0-25-0-0-0-0-0-0-0-0-0-0-0-0-0.info
0-0-0-0-0-0-0-0-0-0-0-0-0-33-0-0-0-0-0-0-0-0-0-0-0-0-0.info
0-0-0-0-0-0-0-0-0-0-0-0-0-5-0-0-0-0-0-0-0-0-0-0-0-0-0.info
0-0-0-0.biz
0-0-0-0.info
0-0-0-0.ru
0-0-0.biz
0-0-0.one
0-0-1.org
0-0-11-0-0.com
0-0-24.info
0-0-255.com
0-0-36.ru
0-0-36.xn--p1ai
0-0-6-0-0.com
0-0-6-0-0.ru
0-0-60.com
0-0-7agnessa.ru
0-0-8-0-0.com
0-0-8-0-0.ru
0-0-8-6.com
0-0-aircleanacs-loplak.com
0-0-alice-0-0.deviantart.com
0-0-biscotello-loplak.com
0-0-boppinbunnieslivemusicforlittleones-loplak.com
0-0-dexter.com
0-0-dyrgaard.com
0-0-eaglehills-loplak.com
0-0-fa.com
0-0-hexcut-loplak.com
0-0-lindalen.com
0-0-malin-loplak.com
0-0-monocontrol-loplak.com
0-0-multimatic-loplak.com
0-0-o.com
0-0-orlimanmaternity.com
0-0-phixilin.com
0-0-piper-loplak.com
0-0-smartally.com
0-0-soo-loplak.com
0-0-sscfarulconstanta-loplak.com
0-0-stepifi-loplak.com
0-0-theshavery-loplak.com
0-0-unibelin.com
0-0-unloadedforce-loplak.com
0-0-v-loplak.com
0-0-wepcop-loplak.com
0-0.biz
0-0.click
0-0.cloud
0-0.co.uk
0-0.date
0-0.download
0-0.expert
0-0.host
0-0.life
0-0.ltd
0-0.one
0-0.red
0-0.space
0-0.stream

Catalog




By Alexa Ranking